ISO-10303-21;
HEADER;
FILE_DESCRIPTION (( 'STEP AP203' ),
    '1' );
FILE_NAME ('D1101168-v1_aLIGO_SUS_HSTS_Magnet Bushing (PTFE).STEP',
    '2011-06-23T18:18:06',
    ( '' ),
    ( '' ),
    'SwSTEP 2.0',
    'SolidWorks 2010',
    '' );
FILE_SCHEMA (( 'CONFIG_CONTROL_DESIGN' ));
ENDSEC;

DATA;
#1 = EDGE_LOOP ( 'NONE', ( #44, #45 ) ) ;
#2 = EDGE_LOOP ( 'NONE', ( #41, #42 ) ) ;
#3 = VECTOR ( 'NONE', #237, 39.37007874015748100 ) ;
#4 = EDGE_LOOP ( 'NONE', ( #66, #9, #67, #68 ) ) ;
#5 = FACE_BOUND ( 'NONE', #2, .T. ) ;
#6 = ORIENTED_EDGE ( 'NONE', *, *, #388, .T. ) ;
#7 = ORIENTED_EDGE ( 'NONE', *, *, #397, .F. ) ;
#8 = ORIENTED_EDGE ( 'NONE', *, *, #389, .F. ) ;
#9 = ORIENTED_EDGE ( 'NONE', *, *, #399, .F. ) ;
#10 = CYLINDRICAL_SURFACE ( 'NONE', #373, 0.2495000000000000000 ) ;
#11 = FACE_OUTER_BOUND ( 'NONE', #4, .T. ) ;
#12 = EDGE_LOOP ( 'NONE', ( #51, #52, #53, #54 ) ) ;
#13 = ORIENTED_EDGE ( 'NONE', *, *, #387, .T. ) ;
#14 = EDGE_LOOP ( 'NONE', ( #35, #6, #37, #36 ) ) ;
#15 = CLOSED_SHELL ( 'NONE', ( #338, #327, #328, #329, #330, #331, #332, #333, #334, #335, #336, #337 ) ) ;
#16 = EDGE_LOOP ( 'NONE', ( #46, #13, #69, #7 ) ) ;
#17 = EDGE_LOOP ( 'NONE', ( #31, #27, #30, #29 ) ) ;
#18 = EDGE_LOOP ( 'NONE', ( #38, #39, #40, #43 ) ) ;
#19 = EDGE_LOOP ( 'NONE', ( #49, #50 ) ) ;
#20 = EDGE_LOOP ( 'NONE', ( #55, #56 ) ) ;
#21 = EDGE_LOOP ( 'NONE', ( #47, #48 ) ) ;
#22 = EDGE_LOOP ( 'NONE', ( #28, #32, #33, #34 ) ) ;
#23 = EDGE_LOOP ( 'NONE', ( #58, #59, #60, #61 ) ) ;
#24 = EDGE_LOOP ( 'NONE', ( #62, #63 ) ) ;
#25 = EDGE_LOOP ( 'NONE', ( #64, #65 ) ) ;
#26 = EDGE_LOOP ( 'NONE', ( #8, #57 ) ) ;
#27 = ORIENTED_EDGE ( 'NONE', *, *, #378, .T. ) ;
#28 = ORIENTED_EDGE ( 'NONE', *, *, #385, .F. ) ;
#29 = ORIENTED_EDGE ( 'NONE', *, *, #375, .F. ) ;
#30 = ORIENTED_EDGE ( 'NONE', *, *, #381, .T. ) ;
#31 = ORIENTED_EDGE ( 'NONE', *, *, #382, .F. ) ;
#32 = ORIENTED_EDGE ( 'NONE', *, *, #383, .T. ) ;
#33 = ORIENTED_EDGE ( 'NONE', *, *, #379, .T. ) ;
#34 = ORIENTED_EDGE ( 'NONE', *, *, #386, .F. ) ;
#35 = ORIENTED_EDGE ( 'NONE', *, *, #389, .T. ) ;
#36 = ORIENTED_EDGE ( 'NONE', *, *, #391, .F. ) ;
#37 = ORIENTED_EDGE ( 'NONE', *, *, #380, .F. ) ;
#38 = ORIENTED_EDGE ( 'NONE', *, *, #393, .T. ) ;
#39 = ORIENTED_EDGE ( 'NONE', *, *, #392, .T. ) ;
#40 = ORIENTED_EDGE ( 'NONE', *, *, #384, .F. ) ;
#41 = ORIENTED_EDGE ( 'NONE', *, *, #396, .T. ) ;
#42 = ORIENTED_EDGE ( 'NONE', *, *, #385, .T. ) ;
#43 = ORIENTED_EDGE ( 'NONE', *, *, #394, .F. ) ;
#44 = ORIENTED_EDGE ( 'NONE', *, *, #384, .T. ) ;
#45 = ORIENTED_EDGE ( 'NONE', *, *, #397, .T. ) ;
#46 = ORIENTED_EDGE ( 'NONE', *, *, #392, .F. ) ;
#47 = ORIENTED_EDGE ( 'NONE', *, *, #393, .F. ) ;
#48 = ORIENTED_EDGE ( 'NONE', *, *, #387, .F. ) ;
#49 = ORIENTED_EDGE ( 'NONE', *, *, #380, .T. ) ;
#50 = ORIENTED_EDGE ( 'NONE', *, *, #371, .T. ) ;
#51 = ORIENTED_EDGE ( 'NONE', *, *, #388, .F. ) ;
#52 = ORIENTED_EDGE ( 'NONE', *, *, #395, .T. ) ;
#53 = ORIENTED_EDGE ( 'NONE', *, *, #391, .T. ) ;
#54 = ORIENTED_EDGE ( 'NONE', *, *, #371, .F. ) ;
#55 = ORIENTED_EDGE ( 'NONE', *, *, #398, .F. ) ;
#56 = ORIENTED_EDGE ( 'NONE', *, *, #381, .F. ) ;
#57 = ORIENTED_EDGE ( 'NONE', *, *, #395, .F. ) ;
#58 = ORIENTED_EDGE ( 'NONE', *, *, #383, .F. ) ;
#59 = ORIENTED_EDGE ( 'NONE', *, *, #396, .F. ) ;
#60 = ORIENTED_EDGE ( 'NONE', *, *, #386, .T. ) ;
#61 = ORIENTED_EDGE ( 'NONE', *, *, #390, .T. ) ;
#62 = ORIENTED_EDGE ( 'NONE', *, *, #390, .F. ) ;
#63 = ORIENTED_EDGE ( 'NONE', *, *, #379, .F. ) ;
#64 = ORIENTED_EDGE ( 'NONE', *, *, #399, .T. ) ;
#65 = ORIENTED_EDGE ( 'NONE', *, *, #382, .T. ) ;
#66 = ORIENTED_EDGE ( 'NONE', *, *, #378, .F. ) ;
#67 = ORIENTED_EDGE ( 'NONE', *, *, #375, .T. ) ;
#68 = ORIENTED_EDGE ( 'NONE', *, *, #398, .T. ) ;
#69 = ORIENTED_EDGE ( 'NONE', *, *, #394, .T. ) ;
#70 = FACE_OUTER_BOUND ( 'NONE', #18, .T. ) ;
#71 = FACE_OUTER_BOUND ( 'NONE', #22, .T. ) ;
#72 = FACE_OUTER_BOUND ( 'NONE', #14, .T. ) ;
#73 = CYLINDRICAL_SURFACE ( 'NONE', #370, 0.04049999999999986200 ) ;
#74 = FACE_OUTER_BOUND ( 'NONE', #16, .T. ) ;
#75 = CYLINDRICAL_SURFACE ( 'NONE', #376, 0.2999999999999999900 ) ;
#76 = LINE ( 'NONE', #236, #87 ) ;
#77 = FACE_OUTER_BOUND ( 'NONE', #1, .T. ) ;
#78 = FACE_BOUND ( 'NONE', #21, .T. ) ;
#79 = FACE_OUTER_BOUND ( 'NONE', #12, .T. ) ;
#80 = CYLINDRICAL_SURFACE ( 'NONE', #403, 0.2495000000000000000 ) ;
#81 = FACE_OUTER_BOUND ( 'NONE', #19, .T. ) ;
#82 = FACE_BOUND ( 'NONE', #20, .T. ) ;
#83 = FACE_OUTER_BOUND ( 'NONE', #23, .T. ) ;
#84 = CYLINDRICAL_SURFACE ( 'NONE', #405, 0.2999999999999999900 ) ;
#85 = FACE_OUTER_BOUND ( 'NONE', #26, .T. ) ;
#86 = FACE_BOUND ( 'NONE', #24, .T. ) ;
#87 = VECTOR ( 'NONE', #239, 39.37007874015748100 ) ;
#88 = CIRCLE ( 'NONE', #411, 0.1279999999999998600 ) ;
#89 = CIRCLE ( 'NONE', #343, 0.2495000000000000000 ) ;
#90 = LOCAL_TIME ( 13, 18, 6.000000000000000000, #132 ) ;
#91 = COORDINATED_UNIVERSAL_TIME_OFFSET ( 6, 0, .BEHIND. ) ;
#92 = DATE_AND_TIME ( #152, #151 ) ;
#93 = CYLINDRICAL_SURFACE ( 'NONE', #406, 0.04049999999999986200 ) ;
#94 = FACE_OUTER_BOUND ( 'NONE', #25, .T. ) ;
#95 = FACE_OUTER_BOUND ( 'NONE', #17, .T. ) ;
#96 = CYLINDRICAL_SURFACE ( 'NONE', #408, 0.1279999999999998900 ) ;
#97 = CYLINDRICAL_SURFACE ( 'NONE', #409, 0.1279999999999998900 ) ;
#98 = LINE ( 'NONE', #230, #3 ) ;
#99 = CIRCLE ( 'NONE', #401, 0.2999999999999999900 ) ;
#100 = VECTOR ( 'NONE', #253, 39.37007874015748100 ) ;
#101 = CIRCLE ( 'NONE', #377, 0.04049999999999987600 ) ;
#102 = CIRCLE ( 'NONE', #400, 0.2999999999999999900 ) ;
#103 = VECTOR ( 'NONE', #266, 39.37007874015748100 ) ;
#104 = CIRCLE ( 'NONE', #410, 0.1279999999999999500 ) ;
#105 = LINE ( 'NONE', #247, #100 ) ;
#106 = VECTOR ( 'NONE', #261, 39.37007874015748100 ) ;
#107 = CIRCLE ( 'NONE', #374, 0.2495000000000000000 ) ;
#108 = LINE ( 'NONE', #254, #106 ) ;
#109 = CIRCLE ( 'NONE', #412, 0.04049999999999984900 ) ;
#110 = VECTOR ( 'NONE', #282, 39.37007874015748100 ) ;
#111 = LINE ( 'NONE', #260, #103 ) ;
#112 = CIRCLE ( 'NONE', #341, 0.2495000000000000000 ) ;
#113 = LINE ( 'NONE', #273, #114 ) ;
#114 = VECTOR ( 'NONE', #274, 39.37007874015748100 ) ;
#115 = CIRCLE ( 'NONE', #340, 0.2999999999999999900 ) ;
#116 = LINE ( 'NONE', #268, #118 ) ;
#117 = CIRCLE ( 'NONE', #367, 0.04049999999999987600 ) ;
#118 = VECTOR ( 'NONE', #276, 39.37007874015748100 ) ;
#119 = LINE ( 'NONE', #281, #110 ) ;
#120 = CIRCLE ( 'NONE', #344, 0.2999999999999999900 ) ;
#121 = CIRCLE ( 'NONE', #342, 0.04049999999999984900 ) ;
#122 = CIRCLE ( 'NONE', #345, 0.2495000000000000000 ) ;
#123 = CIRCLE ( 'NONE', #346, 0.1279999999999999500 ) ;
#124 = CIRCLE ( 'NONE', #347, 0.1279999999999998600 ) ;
#125 = LENGTH_MEASURE_WITH_UNIT ( LENGTH_MEASURE( 0.02539999999999999900 ), #295 );
#126 =( GEOMETRIC_REPRESENTATION_CONTEXT ( 3 ) GLOBAL_UNCERTAINTY_ASSIGNED_CONTEXT ( ( #323 ) ) GLOBAL_UNIT_ASSIGNED_CONTEXT ( ( #294, #298, #299 ) ) REPRESENTATION_CONTEXT ( 'NONE', 'WORKASPACE' ) );
#127 = SHAPE_DEFINITION_REPRESENTATION ( #369, #324 ) ;
#128 = ORGANIZATION ( 'UNSPECIFIED', 'UNSPECIFIED', '' ) ;
#129 = PERSON_AND_ORGANIZATION ( #326, #128 ) ;
#130 = PERSON_AND_ORGANIZATION ( #326, #128 ) ;
#131 = APPROVAL_PERSON_ORGANIZATION ( #130, #351, #310 ) ;
#132 = COORDINATED_UNIVERSAL_TIME_OFFSET ( 6, 0, .BEHIND. ) ;
#133 = CALENDAR_DATE ( 2011, 23, 6 ) ;
#134 = DATE_AND_TIME ( #133, #90 ) ;
#135 = APPROVAL_DATE_TIME ( #134, #351 ) ;
#136 = PERSON_AND_ORGANIZATION ( #326, #128 ) ;
#137 = COORDINATED_UNIVERSAL_TIME_OFFSET ( 6, 0, .BEHIND. ) ;
#138 = LOCAL_TIME ( 13, 18, 6.000000000000000000, #137 ) ;
#139 = CALENDAR_DATE ( 2011, 23, 6 ) ;
#140 = DATE_AND_TIME ( #139, #138 ) ;
#141 = PERSON_AND_ORGANIZATION ( #326, #128 ) ;
#142 = APPROVAL_PERSON_ORGANIZATION ( #141, #356, #314 ) ;
#143 = LOCAL_TIME ( 13, 18, 6.000000000000000000, #91 ) ;
#144 = CALENDAR_DATE ( 2011, 23, 6 ) ;
#145 = DATE_AND_TIME ( #144, #143 ) ;
#146 = APPROVAL_DATE_TIME ( #145, #356 ) ;
#147 = PERSON_AND_ORGANIZATION ( #326, #128 ) ;
#148 = PERSON_AND_ORGANIZATION ( #326, #128 ) ;
#149 = PERSON_AND_ORGANIZATION ( #326, #128 ) ;
#150 = COORDINATED_UNIVERSAL_TIME_OFFSET ( 6, 0, .BEHIND. ) ;
#151 = LOCAL_TIME ( 13, 18, 6.000000000000000000, #150 ) ;
#152 = CALENDAR_DATE ( 2011, 23, 6 ) ;
#153 = PERSON_AND_ORGANIZATION ( #326, #128 ) ;
#154 = APPROVAL_PERSON_ORGANIZATION ( #153, #363, #321 ) ;
#155 = COORDINATED_UNIVERSAL_TIME_OFFSET ( 6, 0, .BEHIND. ) ;
#156 = LOCAL_TIME ( 13, 18, 6.000000000000000000, #155 ) ;
#157 = CALENDAR_DATE ( 2011, 23, 6 ) ;
#158 = DATE_AND_TIME ( #157, #156 ) ;
#159 = APPROVAL_DATE_TIME ( #158, #363 ) ;
#160 = CARTESIAN_POINT ( 'NONE',  ( 1.567547902908610800E-017, 0.07499999999999995600, -0.1279999999999998600 ) ) ;
#161 = CARTESIAN_POINT ( 'NONE',  ( 4.959819536546764900E-018, 0.07499999999999995600, -0.04049999999999987600 ) ) ;
#162 = CARTESIAN_POINT ( 'NONE',  ( 4.959819536546763300E-018, 0.0000000000000000000, -0.04049999999999984900 ) ) ;
#163 = CARTESIAN_POINT ( 'NONE',  ( 0.0000000000000000000, 0.6250000000000000000, -0.2999999999999999900 ) ) ;
#164 = CARTESIAN_POINT ( 'NONE',  ( 1.567547902908611400E-017, 0.6250000000000000000, -0.1279999999999999500 ) ) ;
#165 = VERTEX_POINT ( 'NONE', #160 ) ;
#166 = VERTEX_POINT ( 'NONE', #181 ) ;
#167 = VERTEX_POINT ( 'NONE', #164 ) ;
#168 = VERTEX_POINT ( 'NONE', #182 ) ;
#169 = VERTEX_POINT ( 'NONE', #162 ) ;
#170 = VERTEX_POINT ( 'NONE', #183 ) ;
#171 = VERTEX_POINT ( 'NONE', #161 ) ;
#172 = VERTEX_POINT ( 'NONE', #184 ) ;
#173 = VERTEX_POINT ( 'NONE', #163 ) ;
#174 = VERTEX_POINT ( 'NONE', #185 ) ;
#175 = VERTEX_POINT ( 'NONE', #186 ) ;
#176 = VERTEX_POINT ( 'NONE', #187 ) ;
#177 = VERTEX_POINT ( 'NONE', #188 ) ;
#178 = VERTEX_POINT ( 'NONE', #189 ) ;
#179 = VERTEX_POINT ( 'NONE', #190 ) ;
#180 = VERTEX_POINT ( 'NONE', #191 ) ;
#181 = CARTESIAN_POINT ( 'NONE',  ( 0.0000000000000000000, 0.07499999999999995600, 0.1279999999999998600 ) ) ;
#182 = CARTESIAN_POINT ( 'NONE',  ( 0.0000000000000000000, 0.6250000000000000000, 0.1279999999999999500 ) ) ;
#183 = CARTESIAN_POINT ( 'NONE',  ( 0.0000000000000000000, 0.0000000000000000000, 0.04049999999999984900 ) ) ;
#184 = CARTESIAN_POINT ( 'NONE',  ( 0.0000000000000000000, 0.07499999999999995600, 0.04049999999999987600 ) ) ;
#185 = CARTESIAN_POINT ( 'NONE',  ( 3.673940397442058900E-017, 0.6250000000000000000, 0.2999999999999999900 ) ) ;
#186 = CARTESIAN_POINT ( 'NONE',  ( 3.673940397442058900E-017, 0.3499999999999999800, 0.2999999999999999900 ) ) ;
#187 = CARTESIAN_POINT ( 'NONE',  ( 0.0000000000000000000, 0.3499999999999999800, -0.2999999999999999900 ) ) ;
#188 = CARTESIAN_POINT ( 'NONE',  ( 0.0000000000000000000, 0.3499999999999999800, -0.2495000000000000000 ) ) ;
#189 = CARTESIAN_POINT ( 'NONE',  ( 3.055493763872646300E-017, 0.3499999999999999800, 0.2495000000000000000 ) ) ;
#190 = CARTESIAN_POINT ( 'NONE',  ( 3.055493763872646300E-017, -3.055493763872646300E-017, 0.2495000000000000000 ) ) ;
#191 = CARTESIAN_POINT ( 'NONE',  ( 0.0000000000000000000, -3.055493763872646300E-017, -0.2495000000000000000 ) ) ;
#192 = DIRECTION ( 'NONE',  ( 0.0000000000000000000, 0.0000000000000000000, -1.000000000000000000 ) ) ;
#193 = DIRECTION ( 'NONE',  ( 0.0000000000000000000, 0.0000000000000000000, 1.000000000000000000 ) ) ;
#194 = DIRECTION ( 'NONE',  ( -0.0000000000000000000, 1.000000000000000000, -0.0000000000000000000 ) ) ;
#195 = CARTESIAN_POINT ( 'NONE',  ( 0.0000000000000000000, 0.6250000000000000000, 0.0000000000000000000 ) ) ;
#196 = DIRECTION ( 'NONE',  ( 0.0000000000000000000, 0.0000000000000000000, -1.000000000000000000 ) ) ;
#197 = DIRECTION ( 'NONE',  ( -0.0000000000000000000, -1.000000000000000000, -0.0000000000000000000 ) ) ;
#198 = CARTESIAN_POINT ( 'NONE',  ( 0.0000000000000000000, 0.0000000000000000000, 0.0000000000000000000 ) ) ;
#199 = CARTESIAN_POINT ( 'NONE',  ( 0.0000000000000000000, 0.0000000000000000000, 0.0000000000000000000 ) ) ;
#200 = DIRECTION ( 'NONE',  ( -0.0000000000000000000, -1.000000000000000000, -0.0000000000000000000 ) ) ;
#201 = CARTESIAN_POINT ( 'NONE',  ( 0.0000000000000000000, 0.0000000000000000000, 0.0000000000000000000 ) ) ;
#202 = DIRECTION ( 'NONE',  ( -0.0000000000000000000, -1.000000000000000000, -0.0000000000000000000 ) ) ;
#203 = CARTESIAN_POINT ( 'NONE',  ( 0.0000000000000000000, -1.527746881936323100E-017, 0.0000000000000000000 ) ) ;
#204 = PLANE ( 'NONE',  #372 ) ;
#205 = DIRECTION ( 'NONE',  ( 0.0000000000000000000, 0.0000000000000000000, -1.000000000000000000 ) ) ;
#206 = DIRECTION ( 'NONE',  ( 0.0000000000000000000, 1.000000000000000000, 0.0000000000000000000 ) ) ;
#207 = DIRECTION ( 'NONE',  ( 0.0000000000000000000, -0.0000000000000000000, 1.000000000000000000 ) ) ;
#208 = CARTESIAN_POINT ( 'NONE',  ( 0.0000000000000000000, 0.0000000000000000000, 0.0000000000000000000 ) ) ;
#209 = DIRECTION ( 'NONE',  ( -0.0000000000000000000, -1.000000000000000000, -0.0000000000000000000 ) ) ;
#210 = CARTESIAN_POINT ( 'NONE',  ( -0.2495000000000000000, 0.3499999999999999800, 0.0000000000000000000 ) ) ;
#211 = PLANE ( 'NONE',  #402 ) ;
#212 = DIRECTION ( 'NONE',  ( 0.0000000000000000000, 0.0000000000000000000, -1.000000000000000000 ) ) ;
#213 = DIRECTION ( 'NONE',  ( 0.0000000000000000000, 1.000000000000000000, 0.0000000000000000000 ) ) ;
#214 = DIRECTION ( 'NONE',  ( 0.0000000000000000000, -0.0000000000000000000, 1.000000000000000000 ) ) ;
#215 = CARTESIAN_POINT ( 'NONE',  ( 0.0000000000000000000, 0.6250000000000000000, 0.0000000000000000000 ) ) ;
#216 = DIRECTION ( 'NONE',  ( -0.0000000000000000000, 1.000000000000000000, -0.0000000000000000000 ) ) ;
#217 = CARTESIAN_POINT ( 'NONE',  ( -0.2999999999999999900, 0.6250000000000000000, 0.0000000000000000000 ) ) ;
#218 = PLANE ( 'NONE',  #404 ) ;
#219 = DIRECTION ( 'NONE',  ( 0.0000000000000000000, 0.0000000000000000000, 1.000000000000000000 ) ) ;
#220 = DIRECTION ( 'NONE',  ( 0.0000000000000000000, -1.000000000000000000, -0.0000000000000000000 ) ) ;
#221 = DIRECTION ( 'NONE',  ( 0.0000000000000000000, 0.0000000000000000000, -1.000000000000000000 ) ) ;
#222 = CARTESIAN_POINT ( 'NONE',  ( 0.0000000000000000000, 0.6250000000000000000, 0.0000000000000000000 ) ) ;
#223 = DIRECTION ( 'NONE',  ( -0.0000000000000000000, 1.000000000000000000, -0.0000000000000000000 ) ) ;
#224 = CARTESIAN_POINT ( 'NONE',  ( 0.04049999999999987600, 0.07499999999999995600, 0.0000000000000000000 ) ) ;
#225 = PLANE ( 'NONE',  #407 ) ;
#226 = DIRECTION ( 'NONE',  ( 0.0000000000000000000, 0.0000000000000000000, 1.000000000000000000 ) ) ;
#227 = DIRECTION ( 'NONE',  ( 0.0000000000000000000, -1.000000000000000000, 0.0000000000000000000 ) ) ;
#228 = DIRECTION ( 'NONE',  ( 0.0000000000000000000, -0.0000000000000000000, -1.000000000000000000 ) ) ;
#229 = DIRECTION ( 'NONE',  ( 0.0000000000000000000, 0.0000000000000000000, 1.000000000000000000 ) ) ;
#230 = CARTESIAN_POINT ( 'NONE',  ( 0.0000000000000000000, 0.6250000000000000000, 0.1279999999999998900 ) ) ;
#231 = DIRECTION ( 'NONE',  ( -0.0000000000000000000, 1.000000000000000000, -0.0000000000000000000 ) ) ;
#232 = CARTESIAN_POINT ( 'NONE',  ( 0.0000000000000000000, 0.6250000000000000000, 0.0000000000000000000 ) ) ;
#233 = CARTESIAN_POINT ( 'NONE',  ( 0.0000000000000000000, 0.3499999999999999800, 0.0000000000000000000 ) ) ;
#234 = DIRECTION ( 'NONE',  ( -0.0000000000000000000, -1.000000000000000000, -0.0000000000000000000 ) ) ;
#235 = DIRECTION ( 'NONE',  ( 0.0000000000000000000, 0.0000000000000000000, -1.000000000000000000 ) ) ;
#236 = CARTESIAN_POINT ( 'NONE',  ( 1.567547902908610800E-017, 0.6250000000000000000, -0.1279999999999998900 ) ) ;
#237 = DIRECTION ( 'NONE',  ( -0.0000000000000000000, 1.000000000000000000, -0.0000000000000000000 ) ) ;
#238 = CARTESIAN_POINT ( 'NONE',  ( 0.0000000000000000000, 0.6250000000000000000, 0.0000000000000000000 ) ) ;
#239 = DIRECTION ( 'NONE',  ( -0.0000000000000000000, 1.000000000000000000, -0.0000000000000000000 ) ) ;
#240 = CARTESIAN_POINT ( 'NONE',  ( 0.0000000000000000000, 0.07499999999999995600, 0.0000000000000000000 ) ) ;
#241 = DIRECTION ( 'NONE',  ( -0.0000000000000000000, 1.000000000000000000, -0.0000000000000000000 ) ) ;
#242 = DIRECTION ( 'NONE',  ( 0.0000000000000000000, 0.0000000000000000000, 1.000000000000000000 ) ) ;
#243 = CARTESIAN_POINT ( 'NONE',  ( 0.0000000000000000000, 0.3499999999999999800, 0.0000000000000000000 ) ) ;
#244 = CARTESIAN_POINT ( 'NONE',  ( 0.0000000000000000000, 0.07499999999999995600, 0.0000000000000000000 ) ) ;
#245 = DIRECTION ( 'NONE',  ( -0.0000000000000000000, -1.000000000000000000, -0.0000000000000000000 ) ) ;
#246 = DIRECTION ( 'NONE',  ( 0.0000000000000000000, 0.0000000000000000000, -1.000000000000000000 ) ) ;
#247 = CARTESIAN_POINT ( 'NONE',  ( 4.959819536546764100E-018, 0.6250000000000000000, -0.04049999999999986200 ) ) ;
#248 = DIRECTION ( 'NONE',  ( -0.0000000000000000000, 1.000000000000000000, -0.0000000000000000000 ) ) ;
#249 = DIRECTION ( 'NONE',  ( 0.0000000000000000000, 0.0000000000000000000, 1.000000000000000000 ) ) ;
#250 = DIRECTION ( 'NONE',  ( -0.0000000000000000000, 1.000000000000000000, -0.0000000000000000000 ) ) ;
#251 = DIRECTION ( 'NONE',  ( 0.0000000000000000000, 0.0000000000000000000, 1.000000000000000000 ) ) ;
#252 = CARTESIAN_POINT ( 'NONE',  ( 0.0000000000000000000, -3.055493763872646300E-017, 0.0000000000000000000 ) ) ;
#253 = DIRECTION ( 'NONE',  ( -0.0000000000000000000, 1.000000000000000000, -0.0000000000000000000 ) ) ;
#254 = CARTESIAN_POINT ( 'NONE',  ( 0.0000000000000000000, 0.6250000000000000000, 0.04049999999999986200 ) ) ;
#255 = DIRECTION ( 'NONE',  ( -0.0000000000000000000, -1.000000000000000000, -0.0000000000000000000 ) ) ;
#256 = DIRECTION ( 'NONE',  ( 0.0000000000000000000, 0.0000000000000000000, -1.000000000000000000 ) ) ;
#257 = CARTESIAN_POINT ( 'NONE',  ( 0.0000000000000000000, 0.0000000000000000000, 0.0000000000000000000 ) ) ;
#258 = DIRECTION ( 'NONE',  ( -0.0000000000000000000, 1.000000000000000000, -0.0000000000000000000 ) ) ;
#259 = DIRECTION ( 'NONE',  ( 0.0000000000000000000, 0.0000000000000000000, 1.000000000000000000 ) ) ;
#260 = CARTESIAN_POINT ( 'NONE',  ( 3.673940397442058900E-017, 0.0000000000000000000, 0.2999999999999999900 ) ) ;
#261 = DIRECTION ( 'NONE',  ( -0.0000000000000000000, 1.000000000000000000, -0.0000000000000000000 ) ) ;
#262 = CARTESIAN_POINT ( 'NONE',  ( 0.0000000000000000000, 0.3499999999999999800, 0.0000000000000000000 ) ) ;
#263 = DIRECTION ( 'NONE',  ( -0.0000000000000000000, -1.000000000000000000, -0.0000000000000000000 ) ) ;
#264 = DIRECTION ( 'NONE',  ( 0.0000000000000000000, 0.0000000000000000000, -1.000000000000000000 ) ) ;
#265 = CARTESIAN_POINT ( 'NONE',  ( 0.0000000000000000000, 0.07499999999999995600, 0.0000000000000000000 ) ) ;
#266 = DIRECTION ( 'NONE',  ( -0.0000000000000000000, -1.000000000000000000, -0.0000000000000000000 ) ) ;
#267 = CARTESIAN_POINT ( 'NONE',  ( 0.0000000000000000000, 0.6250000000000000000, 0.0000000000000000000 ) ) ;
#268 = CARTESIAN_POINT ( 'NONE',  ( 3.055493763872646300E-017, 0.0000000000000000000, 0.2495000000000000000 ) ) ;
#269 = DIRECTION ( 'NONE',  ( -0.0000000000000000000, -1.000000000000000000, -0.0000000000000000000 ) ) ;
#270 = DIRECTION ( 'NONE',  ( 0.0000000000000000000, 0.0000000000000000000, -1.000000000000000000 ) ) ;
#271 = DIRECTION ( 'NONE',  ( -0.0000000000000000000, 1.000000000000000000, -0.0000000000000000000 ) ) ;
#272 = DIRECTION ( 'NONE',  ( 0.0000000000000000000, 0.0000000000000000000, 1.000000000000000000 ) ) ;
#273 = CARTESIAN_POINT ( 'NONE',  ( 0.0000000000000000000, 0.0000000000000000000, -0.2999999999999999900 ) ) ;
#274 = DIRECTION ( 'NONE',  ( -0.0000000000000000000, -1.000000000000000000, -0.0000000000000000000 ) ) ;
#275 = CARTESIAN_POINT ( 'NONE',  ( 0.0000000000000000000, 0.6250000000000000000, 0.0000000000000000000 ) ) ;
#276 = DIRECTION ( 'NONE',  ( -0.0000000000000000000, -1.000000000000000000, -0.0000000000000000000 ) ) ;
#277 = CARTESIAN_POINT ( 'NONE',  ( 0.0000000000000000000, 0.3499999999999999800, 0.0000000000000000000 ) ) ;
#278 = CARTESIAN_POINT ( 'NONE',  ( 0.0000000000000000000, 0.0000000000000000000, 0.0000000000000000000 ) ) ;
#279 = DIRECTION ( 'NONE',  ( -0.0000000000000000000, -1.000000000000000000, -0.0000000000000000000 ) ) ;
#280 = DIRECTION ( 'NONE',  ( 0.0000000000000000000, 0.0000000000000000000, -1.000000000000000000 ) ) ;
#281 = CARTESIAN_POINT ( 'NONE',  ( 0.0000000000000000000, 0.0000000000000000000, -0.2495000000000000000 ) ) ;
#282 = DIRECTION ( 'NONE',  ( -0.0000000000000000000, -1.000000000000000000, -0.0000000000000000000 ) ) ;
#283 = CARTESIAN_POINT ( 'NONE',  ( 0.0000000000000000000, -3.055493763872646300E-017, 0.0000000000000000000 ) ) ;
#284 = DIRECTION ( 'NONE',  ( -0.0000000000000000000, -1.000000000000000000, -0.0000000000000000000 ) ) ;
#285 = DIRECTION ( 'NONE',  ( 0.0000000000000000000, 0.0000000000000000000, -1.000000000000000000 ) ) ;
#286 = CARTESIAN_POINT ( 'NONE',  ( 0.0000000000000000000, 0.6250000000000000000, 0.0000000000000000000 ) ) ;
#287 = DIRECTION ( 'NONE',  ( -0.0000000000000000000, 1.000000000000000000, -0.0000000000000000000 ) ) ;
#288 = DIRECTION ( 'NONE',  ( 0.0000000000000000000, 0.0000000000000000000, 1.000000000000000000 ) ) ;
#289 = CARTESIAN_POINT ( 'NONE',  ( 0.0000000000000000000, 0.07499999999999995600, 0.0000000000000000000 ) ) ;
#290 = DIRECTION ( 'NONE',  ( -0.0000000000000000000, -1.000000000000000000, -0.0000000000000000000 ) ) ;
#291 = DIRECTION ( 'NONE',  ( 0.0000000000000000000, 0.0000000000000000000, -1.000000000000000000 ) ) ;
#292 = DIRECTION ( 'NONE',  ( -0.0000000000000000000, 1.000000000000000000, -0.0000000000000000000 ) ) ;
#293 = DIRECTION ( 'NONE',  ( 0.0000000000000000000, 0.0000000000000000000, 1.000000000000000000 ) ) ;
#294 =( CONVERSION_BASED_UNIT ( 'INCH', #125 ) LENGTH_UNIT ( ) NAMED_UNIT ( #339 ) );
#295 =( LENGTH_UNIT ( ) NAMED_UNIT ( * ) SI_UNIT ( $, .METRE. ) );
#296 = DIRECTION ( 'NONE',  ( -0.0000000000000000000, 1.000000000000000000, -0.0000000000000000000 ) ) ;
#297 = DIRECTION ( 'NONE',  ( 0.0000000000000000000, 0.0000000000000000000, 1.000000000000000000 ) ) ;
#298 =( NAMED_UNIT ( * ) PLANE_ANGLE_UNIT ( ) SI_UNIT ( $, .RADIAN. ) );
#299 =( NAMED_UNIT ( * ) SI_UNIT ( $, .STERADIAN. ) SOLID_ANGLE_UNIT ( ) );
#300 = CARTESIAN_POINT ( 'NONE',  ( 0.0000000000000000000, 0.0000000000000000000, 0.0000000000000000000 ) ) ;
#301 = DIRECTION ( 'NONE',  ( 0.0000000000000000000, 0.0000000000000000000, 1.000000000000000000 ) ) ;
#302 = DIRECTION ( 'NONE',  ( 1.000000000000000000, 0.0000000000000000000, 0.0000000000000000000 ) ) ;
#303 = APPLICATION_CONTEXT ( 'configuration controlled 3d designs of mechanical parts and assemblies' ) ;
#304 = APPLICATION_PROTOCOL_DEFINITION ( 'international standard', 'config_control_design', 1994, #303 ) ;
#305 = MECHANICAL_CONTEXT ( 'NONE', #303, 'mechanical' ) ;
#306 = PERSON_AND_ORGANIZATION_ROLE ( 'design_owner' ) ;
#307 = APPLICATION_CONTEXT ( 'configuration controlled 3d designs of mechanical parts and assemblies' ) ;
#308 = APPLICATION_PROTOCOL_DEFINITION ( 'international standard', 'config_control_design', 1994, #307 ) ;
#309 = APPROVAL_STATUS ( 'not_yet_approved' ) ;
#310 = APPROVAL_ROLE ( '' ) ;
#311 = PERSON_AND_ORGANIZATION_ROLE ( 'creator' ) ;
#312 = DATE_TIME_ROLE ( 'creation_date' ) ;
#313 = APPROVAL_STATUS ( 'not_yet_approved' ) ;
#314 = APPROVAL_ROLE ( '' ) ;
#315 = PERSON_AND_ORGANIZATION_ROLE ( 'creator' ) ;
#316 = PERSON_AND_ORGANIZATION_ROLE ( 'design_supplier' ) ;
#317 = SECURITY_CLASSIFICATION_LEVEL ( 'unclassified' ) ;
#318 = PERSON_AND_ORGANIZATION_ROLE ( 'classification_officer' ) ;
#319 = DATE_TIME_ROLE ( 'classification_date' ) ;
#320 = APPROVAL_STATUS ( 'not_yet_approved' ) ;
#321 = APPROVAL_ROLE ( '' ) ;
#322 = MANIFOLD_SOLID_BREP ( 'CBORE for #1 Socket Head Cap Screw1', #15 ) ;
#323 = UNCERTAINTY_MEASURE_WITH_UNIT (LENGTH_MEASURE( 1.000000000000000100E-005 ), #294, 'distance_accuracy_value', 'NONE');
#324 = ADVANCED_BREP_SHAPE_REPRESENTATION ( 'D1101168-v1_aLIGO_SUS_HSTS_Magnet Bushing (PTFE)', ( #322, #348 ), #126 ) ;
#325 = PRODUCT ( 'D1101168-v1_aLIGO_SUS_HSTS_Magnet Bushing (PTFE)', 'D1101168-v1_aLIGO_SUS_HSTS_Magnet Bushing (PTFE)', '', ( #305 ) ) ;
#326 = PERSON ( 'UNSPECIFIED', 'UNSPECIFIED', 'UNSPECIFIED', ('UNSPECIFIED'), ('UNSPECIFIED'), ('UNSPECIFIED') ) ;
#327 = ADVANCED_FACE ( 'NONE', ( #71 ), #73, .F. ) ;
#328 = ADVANCED_FACE ( 'NONE', ( #72 ), #75, .T. ) ;
#329 = ADVANCED_FACE ( 'NONE', ( #70 ), #10, .T. ) ;
#330 = ADVANCED_FACE ( 'NONE', ( #5, #77 ), #204, .F. ) ;
#331 = ADVANCED_FACE ( 'NONE', ( #74 ), #80, .T. ) ;
#332 = ADVANCED_FACE ( 'NONE', ( #78, #81 ), #211, .F. ) ;
#333 = ADVANCED_FACE ( 'NONE', ( #79 ), #84, .T. ) ;
#334 = ADVANCED_FACE ( 'NONE', ( #82, #85 ), #218, .F. ) ;
#335 = ADVANCED_FACE ( 'NONE', ( #83 ), #93, .F. ) ;
#336 = ADVANCED_FACE ( 'NONE', ( #86, #94 ), #225, .F. ) ;
#337 = ADVANCED_FACE ( 'NONE', ( #11 ), #96, .F. ) ;
#338 = ADVANCED_FACE ( 'NONE', ( #95 ), #97, .F. ) ;
#339 = DIMENSIONAL_EXPONENTS ( 1.000000000000000000, 0.0000000000000000000, 0.0000000000000000000, 0.0000000000000000000, 0.0000000000000000000, 0.0000000000000000000, 0.0000000000000000000 ) ;
#340 = AXIS2_PLACEMENT_3D ( 'NONE', #267, #269, #270 ) ;
#341 = AXIS2_PLACEMENT_3D ( 'NONE', #262, #263, #264 ) ;
#342 = AXIS2_PLACEMENT_3D ( 'NONE', #278, #287, #288 ) ;
#343 = AXIS2_PLACEMENT_3D ( 'NONE', #277, #279, #280 ) ;
#344 = AXIS2_PLACEMENT_3D ( 'NONE', #275, #284, #285 ) ;
#345 = AXIS2_PLACEMENT_3D ( 'NONE', #283, #290, #291 ) ;
#346 = AXIS2_PLACEMENT_3D ( 'NONE', #286, #292, #293 ) ;
#347 = AXIS2_PLACEMENT_3D ( 'NONE', #289, #296, #297 ) ;
#348 = AXIS2_PLACEMENT_3D ( 'NONE', #300, #301, #302 ) ;
#349 = CC_DESIGN_PERSON_AND_ORGANIZATION_ASSIGNMENT ( #129, #306, ( #325 ) ) ;
#350 = PRODUCT_DEFINITION ( 'UNKNOWN', '', #355, #368 ) ;
#351 = APPROVAL ( #309, 'UNSPECIFIED' ) ;
#352 = CC_DESIGN_APPROVAL ( #351, ( #350 ) ) ;
#353 = CC_DESIGN_PERSON_AND_ORGANIZATION_ASSIGNMENT ( #136, #311, ( #350 ) ) ;
#354 = CC_DESIGN_DATE_AND_TIME_ASSIGNMENT ( #140, #312, ( #350 ) ) ;
#355 = PRODUCT_DEFINITION_FORMATION_WITH_SPECIFIED_SOURCE ( 'ANY', '', #325, .NOT_KNOWN. ) ;
#356 = APPROVAL ( #313, 'UNSPECIFIED' ) ;
#357 = CC_DESIGN_APPROVAL ( #356, ( #355 ) ) ;
#358 = CC_DESIGN_PERSON_AND_ORGANIZATION_ASSIGNMENT ( #147, #315, ( #355 ) ) ;
#359 = CC_DESIGN_PERSON_AND_ORGANIZATION_ASSIGNMENT ( #148, #316, ( #355 ) ) ;
#360 = SECURITY_CLASSIFICATION ( '', '', #317 ) ;
#361 = CC_DESIGN_PERSON_AND_ORGANIZATION_ASSIGNMENT ( #149, #318, ( #360 ) ) ;
#362 = CC_DESIGN_DATE_AND_TIME_ASSIGNMENT ( #92, #319, ( #360 ) ) ;
#363 = APPROVAL ( #320, 'UNSPECIFIED' ) ;
#364 = CC_DESIGN_APPROVAL ( #363, ( #360 ) ) ;
#365 = CC_DESIGN_SECURITY_CLASSIFICATION ( #360, ( #355 ) ) ;
#366 = PRODUCT_RELATED_PRODUCT_CATEGORY ( 'detail', '', ( #325 ) ) ;
#367 = AXIS2_PLACEMENT_3D ( 'NONE', #265, #271, #272 ) ;
#368 = DESIGN_CONTEXT ( 'detailed design', #307, 'design' ) ;
#369 = PRODUCT_DEFINITION_SHAPE ( 'NONE', 'NONE',  #350 ) ;
#370 = AXIS2_PLACEMENT_3D ( 'NONE', #195, #194, #193 ) ;
#371 = EDGE_CURVE ( 'NONE', #175, #176, #99, .T. ) ;
#372 = AXIS2_PLACEMENT_3D ( 'NONE', #203, #206, #207 ) ;
#373 = AXIS2_PLACEMENT_3D ( 'NONE', #201, #200, #196 ) ;
#374 = AXIS2_PLACEMENT_3D ( 'NONE', #252, #255, #256 ) ;
#375 = EDGE_CURVE ( 'NONE', #166, #168, #98, .T. ) ;
#376 = AXIS2_PLACEMENT_3D ( 'NONE', #198, #197, #192 ) ;
#377 = AXIS2_PLACEMENT_3D ( 'NONE', #240, #241, #242 ) ;
#378 = EDGE_CURVE ( 'NONE', #165, #167, #76, .T. ) ;
#379 = EDGE_CURVE ( 'NONE', #171, #172, #101, .T. ) ;
#380 = EDGE_CURVE ( 'NONE', #176, #175, #102, .T. ) ;
#381 = EDGE_CURVE ( 'NONE', #167, #168, #104, .T. ) ;
#382 = EDGE_CURVE ( 'NONE', #165, #166, #88, .T. ) ;
#383 = EDGE_CURVE ( 'NONE', #169, #171, #105, .T. ) ;
#384 = EDGE_CURVE ( 'NONE', #180, #179, #107, .T. ) ;
#385 = EDGE_CURVE ( 'NONE', #169, #170, #109, .T. ) ;
#386 = EDGE_CURVE ( 'NONE', #170, #172, #108, .T. ) ;
#387 = EDGE_CURVE ( 'NONE', #178, #177, #112, .T. ) ;
#388 = EDGE_CURVE ( 'NONE', #174, #175, #111, .T. ) ;
#389 = EDGE_CURVE ( 'NONE', #173, #174, #115, .T. ) ;
#390 = EDGE_CURVE ( 'NONE', #172, #171, #117, .T. ) ;
#391 = EDGE_CURVE ( 'NONE', #173, #176, #113, .T. ) ;
#392 = EDGE_CURVE ( 'NONE', #178, #179, #116, .T. ) ;
#393 = EDGE_CURVE ( 'NONE', #177, #178, #89, .T. ) ;
#394 = EDGE_CURVE ( 'NONE', #177, #180, #119, .T. ) ;
#395 = EDGE_CURVE ( 'NONE', #174, #173, #120, .T. ) ;
#396 = EDGE_CURVE ( 'NONE', #170, #169, #121, .T. ) ;
#397 = EDGE_CURVE ( 'NONE', #179, #180, #122, .T. ) ;
#398 = EDGE_CURVE ( 'NONE', #168, #167, #123, .T. ) ;
#399 = EDGE_CURVE ( 'NONE', #166, #165, #124, .T. ) ;
#400 = AXIS2_PLACEMENT_3D ( 'NONE', #243, #245, #246 ) ;
#401 = AXIS2_PLACEMENT_3D ( 'NONE', #233, #234, #235 ) ;
#402 = AXIS2_PLACEMENT_3D ( 'NONE', #210, #213, #214 ) ;
#403 = AXIS2_PLACEMENT_3D ( 'NONE', #199, #202, #205 ) ;
#404 = AXIS2_PLACEMENT_3D ( 'NONE', #217, #220, #221 ) ;
#405 = AXIS2_PLACEMENT_3D ( 'NONE', #208, #209, #212 ) ;
#406 = AXIS2_PLACEMENT_3D ( 'NONE', #215, #216, #219 ) ;
#407 = AXIS2_PLACEMENT_3D ( 'NONE', #224, #227, #228 ) ;
#408 = AXIS2_PLACEMENT_3D ( 'NONE', #222, #223, #226 ) ;
#409 = AXIS2_PLACEMENT_3D ( 'NONE', #232, #231, #229 ) ;
#410 = AXIS2_PLACEMENT_3D ( 'NONE', #238, #248, #249 ) ;
#411 = AXIS2_PLACEMENT_3D ( 'NONE', #244, #250, #251 ) ;
#412 = AXIS2_PLACEMENT_3D ( 'NONE', #257, #258, #259 ) ;
ENDSEC;
END-ISO-10303-21;
