ISO-10303-21;
HEADER;
FILE_DESCRIPTION (( 'STEP AP203' ),
    '1' );
FILE_NAME ('D020351-v2_aLIGO_SUS_HSTS_50g Addon Mass.STEP',
    '2010-06-10T22:06:39',
    ( 'Dwayne Giardina' ),
    ( 'CA Institute of Technology' ),
    'SwSTEP 2.0',
    'SolidWorks 2009',
    '' );
FILE_SCHEMA (( 'CONFIG_CONTROL_DESIGN' ));
ENDSEC;

DATA;
#1 = UNCERTAINTY_MEASURE_WITH_UNIT (LENGTH_MEASURE( 1.000000000000000100E-005 ), #177, 'distance_accuracy_value', 'NONE');
#2 = MANIFOLD_SOLID_BREP ( 'NONE', #239 ) ;
#3 = ADVANCED_BREP_SHAPE_REPRESENTATION ( 'D020351-v2_aLIGO_SUS_HSTS_50g Addon Mass', ( #2, #32 ), #197 ) ;
#4 = EDGE_CURVE ( 'NONE', #144, #164, #195, .T. ) ;
#5 = EDGE_CURVE ( 'NONE', #151, #154, #308, .T. ) ;
#6 = EDGE_CURVE ( 'NONE', #141, #160, #192, .T. ) ;
#7 = EDGE_CURVE ( 'NONE', #130, #149, #278, .T. ) ;
#8 = CC_DESIGN_PERSON_AND_ORGANIZATION_ASSIGNMENT ( #315, #184, ( #232 ) ) ;
#9 = CC_DESIGN_PERSON_AND_ORGANIZATION_ASSIGNMENT ( #229, #180, ( #42 ) ) ;
#10 = AXIS2_PLACEMENT_3D ( 'NONE', #155, #161, #152 ) ;
#11 = AXIS2_PLACEMENT_3D ( 'NONE', #150, #158, #147 ) ;
#12 = AXIS2_PLACEMENT_3D ( 'NONE', #145, #153, #142 ) ;
#13 = AXIS2_PLACEMENT_3D ( 'NONE', #140, #148, #138 ) ;
#14 = AXIS2_PLACEMENT_3D ( 'NONE', #136, #143, #134 ) ;
#15 = AXIS2_PLACEMENT_3D ( 'NONE', #137, #129, #135 ) ;
#16 = AXIS2_PLACEMENT_3D ( 'NONE', #121, #131, #117 ) ;
#17 = AXIS2_PLACEMENT_3D ( 'NONE', #103, #127, #157 ) ;
#18 = AXIS2_PLACEMENT_3D ( 'NONE', #125, #89, #124 ) ;
#19 = AXIS2_PLACEMENT_3D ( 'NONE', #70, #116, #119 ) ;
#20 = AXIS2_PLACEMENT_3D ( 'NONE', #118, #106, #115 ) ;
#21 = AXIS2_PLACEMENT_3D ( 'NONE', #113, #163, #111 ) ;
#22 = AXIS2_PLACEMENT_3D ( 'NONE', #101, #100, #69 ) ;
#23 = AXIS2_PLACEMENT_3D ( 'NONE', #98, #82, #96 ) ;
#24 = AXIS2_PLACEMENT_3D ( 'NONE', #94, #72, #92 ) ;
#25 = AXIS2_PLACEMENT_3D ( 'NONE', #65, #79, #87 ) ;
#26 = AXIS2_PLACEMENT_3D ( 'NONE', #75, #64, #73 ) ;
#27 = AXIS2_PLACEMENT_3D ( 'NONE', #76, #61, #88 ) ;
#28 = AXIS2_PLACEMENT_3D ( 'NONE', #80, #63, #85 ) ;
#29 = AXIS2_PLACEMENT_3D ( 'NONE', #66, #78, #81 ) ;
#30 = AXIS2_PLACEMENT_3D ( 'NONE', #86, #91, #83 ) ;
#31 = EDGE_CURVE ( 'NONE', #149, #130, #276, .T. ) ;
#32 = AXIS2_PLACEMENT_3D ( 'NONE', #181, #90, #179 ) ;
#33 = CC_DESIGN_PERSON_AND_ORGANIZATION_ASSIGNMENT ( #277, #166, ( #328 ) ) ;
#34 = EDGE_CURVE ( 'NONE', #130, #151, #249, .T. ) ;
#35 = PRODUCT_DEFINITION ( 'UNKNOWN', '', #42, #189 ) ;
#36 = EDGE_CURVE ( 'NONE', #154, #151, #254, .T. ) ;
#37 = APPROVAL ( #169, 'UNSPECIFIED' ) ;
#38 = CC_DESIGN_APPROVAL ( #37, ( #35 ) ) ;
#39 = EDGE_CURVE ( 'NONE', #149, #154, #288, .T. ) ;
#40 = CC_DESIGN_PERSON_AND_ORGANIZATION_ASSIGNMENT ( #220, #171, ( #35 ) ) ;
#41 = CC_DESIGN_DATE_AND_TIME_ASSIGNMENT ( #224, #172, ( #35 ) ) ;
#42 = PRODUCT_DEFINITION_FORMATION_WITH_SPECIFIED_SOURCE ( 'ANY', '', #328, .NOT_KNOWN. ) ;
#43 = EDGE_CURVE ( 'NONE', #160, #141, #273, .T. ) ;
#44 = APPROVAL ( #174, 'UNSPECIFIED' ) ;
#45 = EDGE_CURVE ( 'NONE', #160, #164, #314, .T. ) ;
#46 = CC_DESIGN_APPROVAL ( #44, ( #42 ) ) ;
#47 = EDGE_CURVE ( 'NONE', #164, #144, #271, .T. ) ;
#48 = EDGE_CURVE ( 'NONE', #141, #144, #270, .T. ) ;
#49 = CC_DESIGN_PERSON_AND_ORGANIZATION_ASSIGNMENT ( #316, #178, ( #42 ) ) ;
#50 = EDGE_CURVE ( 'NONE', #146, #159, #242, .T. ) ;
#51 = EDGE_CURVE ( 'NONE', #146, #156, #253, .T. ) ;
#52 = CC_DESIGN_DATE_AND_TIME_ASSIGNMENT ( #210, #175, ( #232 ) ) ;
#53 = APPROVAL ( #182, 'UNSPECIFIED' ) ;
#54 = CC_DESIGN_APPROVAL ( #53, ( #232 ) ) ;
#55 = CC_DESIGN_SECURITY_CLASSIFICATION ( #232, ( #42 ) ) ;
#56 = PRODUCT_RELATED_PRODUCT_CATEGORY ( 'detail', '', ( #328 ) ) ;
#57 = EDGE_CURVE ( 'NONE', #162, #156, #199, .T. ) ;
#58 = EDGE_CURVE ( 'NONE', #159, #162, #268, .T. ) ;
#59 = EDGE_CURVE ( 'NONE', #159, #146, #228, .T. ) ;
#60 = EDGE_CURVE ( 'NONE', #156, #162, #298, .T. ) ;
#61 = DIRECTION ( 'NONE',  ( -0.0000000000000000000, -0.0000000000000000000, 1.000000000000000000 ) ) ;
#62 = PLANE ( 'NONE',  #29 ) ;
#63 = DIRECTION ( 'NONE',  ( 0.0000000000000000000, 0.0000000000000000000, -1.000000000000000000 ) ) ;
#64 = DIRECTION ( 'NONE',  ( 0.0000000000000000000, 0.0000000000000000000, 1.000000000000000000 ) ) ;
#65 = CARTESIAN_POINT ( 'NONE',  ( 0.0000000000000000000, 0.0000000000000000000, 0.0000000000000000000 ) ) ;
#66 = CARTESIAN_POINT ( 'NONE',  ( 0.0000000000000000000, 0.0000000000000000000, 0.0000000000000000000 ) ) ;
#67 = CARTESIAN_POINT ( 'NONE',  ( 12.69999999999999900, 0.0000000000000000000, 0.0000000000000000000 ) ) ;
#68 = DIRECTION ( 'NONE',  ( 0.0000000000000000000, 0.0000000000000000000, 1.000000000000000000 ) ) ;
#69 = DIRECTION ( 'NONE',  ( 1.000000000000000000, 0.0000000000000000000, 0.0000000000000000000 ) ) ;
#70 = CARTESIAN_POINT ( 'NONE',  ( 0.0000000000000000000, 0.0000000000000000000, 0.0000000000000000000 ) ) ;
#71 = CARTESIAN_POINT ( 'NONE',  ( 12.69999999999999900, 0.0000000000000000000, -26.89999999999999900 ) ) ;
#72 = DIRECTION ( 'NONE',  ( -0.0000000000000000000, -0.0000000000000000000, 1.000000000000000000 ) ) ;
#73 = DIRECTION ( 'NONE',  ( 1.000000000000000000, 0.0000000000000000000, 0.0000000000000000000 ) ) ;
#74 =( NAMED_UNIT ( * ) PLANE_ANGLE_UNIT ( ) SI_UNIT ( $, .RADIAN. ) );
#75 = CARTESIAN_POINT ( 'NONE',  ( 0.0000000000000000000, 0.0000000000000000000, -26.89999999999999900 ) ) ;
#76 = CARTESIAN_POINT ( 'NONE',  ( 0.0000000000000000000, 0.0000000000000000000, 0.0000000000000000000 ) ) ;
#77 = PLANE ( 'NONE',  #28 ) ;
#78 = DIRECTION ( 'NONE',  ( 0.0000000000000000000, 0.0000000000000000000, 1.000000000000000000 ) ) ;
#79 = DIRECTION ( 'NONE',  ( -0.0000000000000000000, -0.0000000000000000000, 1.000000000000000000 ) ) ;
#80 = CARTESIAN_POINT ( 'NONE',  ( 3.378199999999998800, 0.0000000000000000000, -6.350000000000001400 ) ) ;
#81 = DIRECTION ( 'NONE',  ( 1.000000000000000000, 0.0000000000000000000, -0.0000000000000000000 ) ) ;
#82 = DIRECTION ( 'NONE',  ( 0.0000000000000000000, 0.0000000000000000000, -1.000000000000000000 ) ) ;
#83 = DIRECTION ( 'NONE',  ( 1.000000000000000000, 0.0000000000000000000, 0.0000000000000000000 ) ) ;
#84 = CARTESIAN_POINT ( 'NONE',  ( 3.556000000000000000, 0.0000000000000000000, -6.350000000000001400 ) ) ;
#85 = DIRECTION ( 'NONE',  ( -1.000000000000000000, 0.0000000000000000000, -0.0000000000000000000 ) ) ;
#86 = CARTESIAN_POINT ( 'NONE',  ( 0.0000000000000000000, 0.0000000000000000000, -26.89999999999999900 ) ) ;
#87 = DIRECTION ( 'NONE',  ( 1.000000000000000000, 0.0000000000000000000, 0.0000000000000000000 ) ) ;
#88 = DIRECTION ( 'NONE',  ( 1.000000000000000000, 0.0000000000000000000, 0.0000000000000000000 ) ) ;
#89 = DIRECTION ( 'NONE',  ( 0.0000000000000000000, 0.0000000000000000000, -1.000000000000000000 ) ) ;
#90 = DIRECTION ( 'NONE',  ( 0.0000000000000000000, 0.0000000000000000000, 1.000000000000000000 ) ) ;
#91 = DIRECTION ( 'NONE',  ( 0.0000000000000000000, 0.0000000000000000000, 1.000000000000000000 ) ) ;
#92 = DIRECTION ( 'NONE',  ( 1.000000000000000000, 0.0000000000000000000, 0.0000000000000000000 ) ) ;
#93 = CARTESIAN_POINT ( 'NONE',  ( -3.556000000000000000, 4.354844017767987700E-016, -14.20000000000000100 ) ) ;
#94 = CARTESIAN_POINT ( 'NONE',  ( 0.0000000000000000000, 0.0000000000000000000, -23.00000000000000400 ) ) ;
#95 = CARTESIAN_POINT ( 'NONE',  ( 5.556249999999995000, 0.0000000000000000000, 2.430078233366276300E-015 ) ) ;
#96 = DIRECTION ( 'NONE',  ( -1.000000000000000000, 0.0000000000000000000, -0.0000000000000000000 ) ) ;
#97 = CARTESIAN_POINT ( 'NONE',  ( 12.69999999999999900, 0.0000000000000000000, -14.20000000000000100 ) ) ;
#98 = CARTESIAN_POINT ( 'NONE',  ( 0.0000000000000000000, 0.0000000000000000000, -14.20000000000000100 ) ) ;
#99 =( NAMED_UNIT ( * ) SI_UNIT ( $, .STERADIAN. ) SOLID_ANGLE_UNIT ( ) );
#100 = DIRECTION ( 'NONE',  ( -0.0000000000000000000, -0.0000000000000000000, 1.000000000000000000 ) ) ;
#101 = CARTESIAN_POINT ( 'NONE',  ( 0.0000000000000000000, 0.0000000000000000000, -23.00000000000000400 ) ) ;
#102 = CARTESIAN_POINT ( 'NONE',  ( -5.556249999999995000, 6.804443777762475200E-016, 2.430078233366276300E-015 ) ) ;
#103 = CARTESIAN_POINT ( 'NONE',  ( 0.0000000000000000000, 0.0000000000000000000, 2.430078233366276300E-015 ) ) ;
#104 = CARTESIAN_POINT ( 'NONE',  ( 3.556000000000000000, 0.0000000000000000000, -14.20000000000000100 ) ) ;
#105 = CARTESIAN_POINT ( 'NONE',  ( -5.556249999999995900, 6.804443777762477200E-016, -6.350000000000001400 ) ) ;
#106 = DIRECTION ( 'NONE',  ( 0.0000000000000000000, 0.0000000000000000000, -1.000000000000000000 ) ) ;
#107 = CARTESIAN_POINT ( 'NONE',  ( -12.69999999999999900, 1.555301434917138000E-015, 0.0000000000000000000 ) ) ;
#108 = CARTESIAN_POINT ( 'NONE',  ( -3.556000000000000000, 4.354844017767987700E-016, -6.350000000000001400 ) ) ;
#109 = CARTESIAN_POINT ( 'NONE',  ( -12.69999999999999900, 1.555301434917138000E-015, -14.20000000000000100 ) ) ;
#110 = CARTESIAN_POINT ( 'NONE',  ( 5.556249999999995900, 0.0000000000000000000, -6.350000000000001400 ) ) ;
#111 = DIRECTION ( 'NONE',  ( 1.000000000000000000, 0.0000000000000000000, 0.0000000000000000000 ) ) ;
#112 = PLANE ( 'NONE',  #23 ) ;
#113 = CARTESIAN_POINT ( 'NONE',  ( 0.0000000000000000000, 0.0000000000000000000, 0.0000000000000000000 ) ) ;
#114 = CARTESIAN_POINT ( 'NONE',  ( 5.556249999999995000, 0.0000000000000000000, 0.0000000000000000000 ) ) ;
#115 = DIRECTION ( 'NONE',  ( -1.000000000000000000, 0.0000000000000000000, 0.0000000000000000000 ) ) ;
#116 = DIRECTION ( 'NONE',  ( 0.0000000000000000000, 0.0000000000000000000, 1.000000000000000000 ) ) ;
#117 = DIRECTION ( 'NONE',  ( 1.000000000000000000, 0.0000000000000000000, 0.0000000000000000000 ) ) ;
#118 = CARTESIAN_POINT ( 'NONE',  ( 0.0000000000000000000, 0.0000000000000000000, -14.20000000000000100 ) ) ;
#119 = DIRECTION ( 'NONE',  ( 1.000000000000000000, 0.0000000000000000000, 0.0000000000000000000 ) ) ;
#120 = DIRECTION ( 'NONE',  ( 0.0000000000000000000, 0.0000000000000000000, 1.000000000000000000 ) ) ;
#121 = CARTESIAN_POINT ( 'NONE',  ( 0.0000000000000000000, 0.0000000000000000000, -6.350000000000001400 ) ) ;
#122 = CARTESIAN_POINT ( 'NONE',  ( -12.69999999999999900, 1.555301434917138000E-015, -26.89999999999999900 ) ) ;
#123 = DIRECTION ( 'NONE',  ( -0.0000000000000000000, -0.0000000000000000000, 1.000000000000000000 ) ) ;
#124 = DIRECTION ( 'NONE',  ( -1.000000000000000000, 0.0000000000000000000, 0.0000000000000000000 ) ) ;
#125 = CARTESIAN_POINT ( 'NONE',  ( 0.0000000000000000000, 0.0000000000000000000, -14.20000000000000100 ) ) ;
#126 = DIRECTION ( 'NONE',  ( -0.0000000000000000000, -0.0000000000000000000, 1.000000000000000000 ) ) ;
#127 = DIRECTION ( 'NONE',  ( -0.0000000000000000000, -0.0000000000000000000, 1.000000000000000000 ) ) ;
#128 = DIRECTION ( 'NONE',  ( -0.0000000000000000000, -0.0000000000000000000, 1.000000000000000000 ) ) ;
#129 = DIRECTION ( 'NONE',  ( 0.0000000000000000000, 0.0000000000000000000, -1.000000000000000000 ) ) ;
#130 = VERTEX_POINT ( 'NONE', #93 ) ;
#131 = DIRECTION ( 'NONE',  ( -0.0000000000000000000, -0.0000000000000000000, 1.000000000000000000 ) ) ;
#132 = CARTESIAN_POINT ( 'NONE',  ( -3.556000000000000000, 4.354844017767987700E-016, -23.00000000000000400 ) ) ;
#133 = CARTESIAN_POINT ( 'NONE',  ( 3.556000000000000000, 0.0000000000000000000, -23.00000000000000400 ) ) ;
#134 = DIRECTION ( 'NONE',  ( -1.000000000000000000, 0.0000000000000000000, 0.0000000000000000000 ) ) ;
#135 = DIRECTION ( 'NONE',  ( -1.000000000000000000, 0.0000000000000000000, 0.0000000000000000000 ) ) ;
#136 = CARTESIAN_POINT ( 'NONE',  ( 0.0000000000000000000, 0.0000000000000000000, -14.20000000000000100 ) ) ;
#137 = CARTESIAN_POINT ( 'NONE',  ( 0.0000000000000000000, 0.0000000000000000000, -6.350000000000001400 ) ) ;
#138 = DIRECTION ( 'NONE',  ( -1.000000000000000000, 0.0000000000000000000, 0.0000000000000000000 ) ) ;
#139 = DIRECTION ( 'NONE',  ( -0.0000000000000000000, -0.0000000000000000000, 1.000000000000000000 ) ) ;
#140 = CARTESIAN_POINT ( 'NONE',  ( 0.0000000000000000000, 0.0000000000000000000, -14.20000000000000100 ) ) ;
#141 = VERTEX_POINT ( 'NONE', #110 ) ;
#142 = DIRECTION ( 'NONE',  ( 1.000000000000000000, 0.0000000000000000000, 0.0000000000000000000 ) ) ;
#143 = DIRECTION ( 'NONE',  ( 0.0000000000000000000, 0.0000000000000000000, -1.000000000000000000 ) ) ;
#144 = VERTEX_POINT ( 'NONE', #95 ) ;
#145 = CARTESIAN_POINT ( 'NONE',  ( 0.0000000000000000000, 0.0000000000000000000, -6.350000000000001400 ) ) ;
#146 = VERTEX_POINT ( 'NONE', #109 ) ;
#147 = DIRECTION ( 'NONE',  ( -1.000000000000000000, 0.0000000000000000000, 0.0000000000000000000 ) ) ;
#148 = DIRECTION ( 'NONE',  ( 0.0000000000000000000, 0.0000000000000000000, -1.000000000000000000 ) ) ;
#149 = VERTEX_POINT ( 'NONE', #104 ) ;
#150 = CARTESIAN_POINT ( 'NONE',  ( 0.0000000000000000000, 0.0000000000000000000, -6.350000000000001400 ) ) ;
#151 = VERTEX_POINT ( 'NONE', #108 ) ;
#152 = DIRECTION ( 'NONE',  ( 1.000000000000000000, 0.0000000000000000000, 0.0000000000000000000 ) ) ;
#153 = DIRECTION ( 'NONE',  ( -0.0000000000000000000, -0.0000000000000000000, 1.000000000000000000 ) ) ;
#154 = VERTEX_POINT ( 'NONE', #84 ) ;
#155 = CARTESIAN_POINT ( 'NONE',  ( 0.0000000000000000000, 0.0000000000000000000, 2.430078233366276300E-015 ) ) ;
#156 = VERTEX_POINT ( 'NONE', #107 ) ;
#157 = DIRECTION ( 'NONE',  ( 1.000000000000000000, 0.0000000000000000000, 0.0000000000000000000 ) ) ;
#158 = DIRECTION ( 'NONE',  ( 0.0000000000000000000, 0.0000000000000000000, -1.000000000000000000 ) ) ;
#159 = VERTEX_POINT ( 'NONE', #97 ) ;
#160 = VERTEX_POINT ( 'NONE', #105 ) ;
#161 = DIRECTION ( 'NONE',  ( -0.0000000000000000000, -0.0000000000000000000, 1.000000000000000000 ) ) ;
#162 = VERTEX_POINT ( 'NONE', #67 ) ;
#163 = DIRECTION ( 'NONE',  ( 0.0000000000000000000, 0.0000000000000000000, 1.000000000000000000 ) ) ;
#164 = VERTEX_POINT ( 'NONE', #102 ) ;
#165 = APPLICATION_PROTOCOL_DEFINITION ( 'international standard', 'config_control_design', 1994, #186 ) ;
#166 = PERSON_AND_ORGANIZATION_ROLE ( 'design_owner' ) ;
#167 = APPLICATION_CONTEXT ( 'configuration controlled 3d designs of mechanical parts and assemblies' ) ;
#168 = APPLICATION_PROTOCOL_DEFINITION ( 'international standard', 'config_control_design', 1994, #167 ) ;
#169 = APPROVAL_STATUS ( 'not_yet_approved' ) ;
#170 = APPROVAL_ROLE ( '' ) ;
#171 = PERSON_AND_ORGANIZATION_ROLE ( 'creator' ) ;
#172 = DATE_TIME_ROLE ( 'creation_date' ) ;
#173 = APPROVAL_ROLE ( '' ) ;
#174 = APPROVAL_STATUS ( 'not_yet_approved' ) ;
#175 = DATE_TIME_ROLE ( 'classification_date' ) ;
#176 = APPROVAL_ROLE ( '' ) ;
#177 =( LENGTH_UNIT ( ) NAMED_UNIT ( * ) SI_UNIT ( .MILLI., .METRE. ) );
#178 = PERSON_AND_ORGANIZATION_ROLE ( 'creator' ) ;
#179 = DIRECTION ( 'NONE',  ( 1.000000000000000000, 0.0000000000000000000, 0.0000000000000000000 ) ) ;
#180 = PERSON_AND_ORGANIZATION_ROLE ( 'design_supplier' ) ;
#181 = CARTESIAN_POINT ( 'NONE',  ( 0.0000000000000000000, 0.0000000000000000000, 0.0000000000000000000 ) ) ;
#182 = APPROVAL_STATUS ( 'not_yet_approved' ) ;
#183 = SECURITY_CLASSIFICATION_LEVEL ( 'unclassified' ) ;
#184 = PERSON_AND_ORGANIZATION_ROLE ( 'classification_officer' ) ;
#185 = CARTESIAN_POINT ( 'NONE',  ( -5.556249999999995000, 6.804443777762475200E-016, 0.0000000000000000000 ) ) ;
#186 = APPLICATION_CONTEXT ( 'configuration controlled 3d designs of mechanical parts and assemblies' ) ;
#187 = MECHANICAL_CONTEXT ( 'NONE', #186, 'mechanical' ) ;
#188 = PRODUCT_DEFINITION_SHAPE ( 'NONE', 'NONE',  #35 ) ;
#189 = DESIGN_CONTEXT ( 'detailed design', #167, 'design' ) ;
#190 = DATE_AND_TIME ( #292, #299 ) ;
#191 = FACE_OUTER_BOUND ( 'NONE', #237, .T. ) ;
#192 = CIRCLE ( 'NONE', #12, 5.556249999999995900 ) ;
#193 = ORIENTED_EDGE ( 'NONE', *, *, #31, .T. ) ;
#194 = FACE_OUTER_BOUND ( 'NONE', #293, .T. ) ;
#195 = CIRCLE ( 'NONE', #10, 5.556249999999995000 ) ;
#196 = COORDINATED_UNIVERSAL_TIME_OFFSET ( 6, 0, .BEHIND. ) ;
#197 =( GEOMETRIC_REPRESENTATION_CONTEXT ( 3 ) GLOBAL_UNCERTAINTY_ASSIGNED_CONTEXT ( ( #1 ) ) GLOBAL_UNIT_ASSIGNED_CONTEXT ( ( #177, #74, #99 ) ) REPRESENTATION_CONTEXT ( 'NONE', 'WORKASPACE' ) );
#198 = FACE_OUTER_BOUND ( 'NONE', #287, .T. ) ;
#199 = CIRCLE ( 'NONE', #19, 12.69999999999999900 ) ;
#200 = ORIENTED_EDGE ( 'NONE', *, *, #50, .F. ) ;
#201 = ORIENTED_EDGE ( 'NONE', *, *, #5, .T. ) ;
#202 = FACE_OUTER_BOUND ( 'NONE', #240, .T. ) ;
#203 = EDGE_LOOP ( 'NONE', ( #246, #266 ) ) ;
#204 = EDGE_LOOP ( 'NONE', ( #245, #269, #303, #282 ) ) ;
#205 = FACE_OUTER_BOUND ( 'NONE', #216, .T. ) ;
#206 = ORIENTED_EDGE ( 'NONE', *, *, #45, .T. ) ;
#207 = FACE_OUTER_BOUND ( 'NONE', #226, .T. ) ;
#208 = DATE_AND_TIME ( #211, #212 ) ;
#209 = FACE_OUTER_BOUND ( 'NONE', #306, .T. ) ;
#210 = DATE_AND_TIME ( #297, #221 ) ;
#211 = CALENDAR_DATE ( 2010, 10, 6 ) ;
#212 = LOCAL_TIME ( 17, 6, 39.00000000000000000, #214 ) ;
#213 = APPROVAL_PERSON_ORGANIZATION ( #218, #44, #176 ) ;
#214 = COORDINATED_UNIVERSAL_TIME_OFFSET ( 6, 0, .BEHIND. ) ;
#215 = CALENDAR_DATE ( 2010, 10, 6 ) ;
#216 = EDGE_LOOP ( 'NONE', ( #193, #236, #233, #264 ) ) ;
#217 = APPROVAL_DATE_TIME ( #222, #37 ) ;
#218 = PERSON_AND_ORGANIZATION ( #329, #302 ) ;
#219 = COORDINATED_UNIVERSAL_TIME_OFFSET ( 6, 0, .BEHIND. ) ;
#220 = PERSON_AND_ORGANIZATION ( #329, #302 ) ;
#221 = LOCAL_TIME ( 17, 6, 39.00000000000000000, #196 ) ;
#222 = DATE_AND_TIME ( #267, #258 ) ;
#223 = ORIENTED_EDGE ( 'NONE', *, *, #4, .T. ) ;
#224 = DATE_AND_TIME ( #215, #296 ) ;
#225 = ORIENTED_EDGE ( 'NONE', *, *, #43, .T. ) ;
#226 = EDGE_LOOP ( 'NONE', ( #284, #256, #305, #223 ) ) ;
#227 = ORIENTED_EDGE ( 'NONE', *, *, #47, .F. ) ;
#228 = CIRCLE ( 'NONE', #20, 12.69999999999999900 ) ;
#229 = PERSON_AND_ORGANIZATION ( #329, #302 ) ;
#230 = FACE_OUTER_BOUND ( 'NONE', #300, .T. ) ;
#231 = VECTOR ( 'NONE', #139, 1000.000000000000000 ) ;
#232 = SECURITY_CLASSIFICATION ( '', '', #183 ) ;
#233 = ORIENTED_EDGE ( 'NONE', *, *, #36, .F. ) ;
#234 = CYLINDRICAL_SURFACE ( 'NONE', #30, 12.69999999999999900 ) ;
#235 = COORDINATED_UNIVERSAL_TIME_OFFSET ( 6, 0, .BEHIND. ) ;
#236 = ORIENTED_EDGE ( 'NONE', *, *, #34, .T. ) ;
#237 = EDGE_LOOP ( 'NONE', ( #290, #275, #285, #281 ) ) ;
#238 = FACE_BOUND ( 'NONE', #203, .T. ) ;
#239 = CLOSED_SHELL ( 'NONE', ( #321, #322, #323, #327, #326, #324, #325, #320, #319 ) ) ;
#240 = EDGE_LOOP ( 'NONE', ( #263, #265 ) ) ;
#241 = ORIENTED_EDGE ( 'NONE', *, *, #48, .F. ) ;
#242 = CIRCLE ( 'NONE', #18, 12.69999999999999900 ) ;
#243 = ORIENTED_EDGE ( 'NONE', *, *, #58, .F. ) ;
#244 = ORIENTED_EDGE ( 'NONE', *, *, #6, .T. ) ;
#245 = ORIENTED_EDGE ( 'NONE', *, *, #51, .F. ) ;
#246 = ORIENTED_EDGE ( 'NONE', *, *, #31, .F. ) ;
#247 = CYLINDRICAL_SURFACE ( 'NONE', #26, 12.69999999999999900 ) ;
#248 = CYLINDRICAL_SURFACE ( 'NONE', #25, 5.556249999999995000 ) ;
#249 = LINE ( 'NONE', #132, #231 ) ;
#250 = ORIENTED_EDGE ( 'NONE', *, *, #43, .F. ) ;
#251 = ORIENTED_EDGE ( 'NONE', *, *, #47, .T. ) ;
#252 = CYLINDRICAL_SURFACE ( 'NONE', #27, 5.556249999999995000 ) ;
#253 = LINE ( 'NONE', #122, #312 ) ;
#254 = CIRCLE ( 'NONE', #15, 3.556000000000000000 ) ;
#255 = SHAPE_DEFINITION_REPRESENTATION ( #188, #3 ) ;
#256 = ORIENTED_EDGE ( 'NONE', *, *, #6, .F. ) ;
#257 = FACE_BOUND ( 'NONE', #310, .T. ) ;
#258 = LOCAL_TIME ( 17, 6, 39.00000000000000000, #304 ) ;
#259 = VECTOR ( 'NONE', #120, 1000.000000000000000 ) ;
#260 = EDGE_LOOP ( 'NONE', ( #280, #227 ) ) ;
#261 = CYLINDRICAL_SURFACE ( 'NONE', #22, 3.556000000000000000 ) ;
#262 = CYLINDRICAL_SURFACE ( 'NONE', #24, 3.556000000000000000 ) ;
#263 = ORIENTED_EDGE ( 'NONE', *, *, #59, .T. ) ;
#264 = ORIENTED_EDGE ( 'NONE', *, *, #39, .F. ) ;
#265 = ORIENTED_EDGE ( 'NONE', *, *, #50, .T. ) ;
#266 = ORIENTED_EDGE ( 'NONE', *, *, #7, .F. ) ;
#267 = CALENDAR_DATE ( 2010, 10, 6 ) ;
#268 = LINE ( 'NONE', #71, #259 ) ;
#269 = ORIENTED_EDGE ( 'NONE', *, *, #59, .F. ) ;
#270 = LINE ( 'NONE', #114, #272 ) ;
#271 = CIRCLE ( 'NONE', #17, 5.556249999999995000 ) ;
#272 = VECTOR ( 'NONE', #126, 1000.000000000000000 ) ;
#273 = CIRCLE ( 'NONE', #16, 5.556249999999995900 ) ;
#274 = VECTOR ( 'NONE', #128, 1000.000000000000000 ) ;
#275 = ORIENTED_EDGE ( 'NONE', *, *, #7, .T. ) ;
#276 = CIRCLE ( 'NONE', #14, 3.556000000000000000 ) ;
#277 = PERSON_AND_ORGANIZATION ( #329, #302 ) ;
#278 = CIRCLE ( 'NONE', #13, 3.556000000000000000 ) ;
#279 = APPROVAL_DATE_TIME ( #190, #53 ) ;
#280 = ORIENTED_EDGE ( 'NONE', *, *, #4, .F. ) ;
#281 = ORIENTED_EDGE ( 'NONE', *, *, #5, .F. ) ;
#282 = ORIENTED_EDGE ( 'NONE', *, *, #60, .F. ) ;
#283 = ORIENTED_EDGE ( 'NONE', *, *, #60, .T. ) ;
#284 = ORIENTED_EDGE ( 'NONE', *, *, #45, .F. ) ;
#285 = ORIENTED_EDGE ( 'NONE', *, *, #39, .T. ) ;
#286 = PERSON_AND_ORGANIZATION ( #329, #302 ) ;
#287 = EDGE_LOOP ( 'NONE', ( #200, #309, #307, #243 ) ) ;
#288 = LINE ( 'NONE', #133, #294 ) ;
#289 = FACE_BOUND ( 'NONE', #260, .T. ) ;
#290 = ORIENTED_EDGE ( 'NONE', *, *, #34, .F. ) ;
#291 = APPROVAL_PERSON_ORGANIZATION ( #286, #37, #170 ) ;
#292 = CALENDAR_DATE ( 2010, 10, 6 ) ;
#293 = EDGE_LOOP ( 'NONE', ( #244, #225 ) ) ;
#294 = VECTOR ( 'NONE', #123, 1000.000000000000000 ) ;
#295 = ORIENTED_EDGE ( 'NONE', *, *, #36, .T. ) ;
#296 = LOCAL_TIME ( 17, 6, 39.00000000000000000, #219 ) ;
#297 = CALENDAR_DATE ( 2010, 10, 6 ) ;
#298 = CIRCLE ( 'NONE', #21, 12.69999999999999900 ) ;
#299 = LOCAL_TIME ( 17, 6, 39.00000000000000000, #235 ) ;
#300 = EDGE_LOOP ( 'NONE', ( #301, #283 ) ) ;
#301 = ORIENTED_EDGE ( 'NONE', *, *, #57, .T. ) ;
#302 = ORGANIZATION ( 'UNSPECIFIED', 'UNSPECIFIED', '' ) ;
#303 = ORIENTED_EDGE ( 'NONE', *, *, #58, .T. ) ;
#304 = COORDINATED_UNIVERSAL_TIME_OFFSET ( 6, 0, .BEHIND. ) ;
#305 = ORIENTED_EDGE ( 'NONE', *, *, #48, .T. ) ;
#306 = EDGE_LOOP ( 'NONE', ( #250, #206, #251, #241 ) ) ;
#307 = ORIENTED_EDGE ( 'NONE', *, *, #57, .F. ) ;
#308 = CIRCLE ( 'NONE', #11, 3.556000000000000000 ) ;
#309 = ORIENTED_EDGE ( 'NONE', *, *, #51, .T. ) ;
#310 = EDGE_LOOP ( 'NONE', ( #295, #201 ) ) ;
#311 = APPROVAL_PERSON_ORGANIZATION ( #313, #53, #173 ) ;
#312 = VECTOR ( 'NONE', #68, 1000.000000000000000 ) ;
#313 = PERSON_AND_ORGANIZATION ( #329, #302 ) ;
#314 = LINE ( 'NONE', #185, #274 ) ;
#315 = PERSON_AND_ORGANIZATION ( #329, #302 ) ;
#316 = PERSON_AND_ORGANIZATION ( #329, #302 ) ;
#317 = APPROVAL_DATE_TIME ( #208, #44 ) ;
#318 = FACE_OUTER_BOUND ( 'NONE', #204, .T. ) ;
#319 = ADVANCED_FACE ( 'NONE', ( #191 ), #261, .F. ) ;
#320 = ADVANCED_FACE ( 'NONE', ( #238, #202 ), #112, .T. ) ;
#321 = ADVANCED_FACE ( 'NONE', ( #205 ), #262, .F. ) ;
#322 = ADVANCED_FACE ( 'NONE', ( #209 ), #248, .F. ) ;
#323 = ADVANCED_FACE ( 'NONE', ( #198 ), #247, .T. ) ;
#324 = ADVANCED_FACE ( 'NONE', ( #207 ), #252, .F. ) ;
#325 = ADVANCED_FACE ( 'NONE', ( #257, #194 ), #77, .F. ) ;
#326 = ADVANCED_FACE ( 'NONE', ( #289, #230 ), #62, .T. ) ;
#327 = ADVANCED_FACE ( 'NONE', ( #318 ), #234, .T. ) ;
#328 = PRODUCT ( 'D020351-v2_aLIGO_SUS_HSTS_50g Addon Mass', 'D020351-v2_aLIGO_SUS_HSTS_50g Addon Mass', '', ( #187 ) ) ;
#329 = PERSON ( 'UNSPECIFIED', 'UNSPECIFIED', 'UNSPECIFIED', ('UNSPECIFIED'), ('UNSPECIFIED'), ('UNSPECIFIED') ) ;
ENDSEC;
END-ISO-10303-21;
